Once

2008.07.10 14:57잡다한 이야기들/영화와 연극 예술속으로



                                                     [버스에서의 행복했던 그들]






 
                           <falling slowly 두가지>


                      <"When Your Mind's Made Up" Scene>

지난 주말을 이용하여 집에 있는 영화 한 편을 보았다.
아는 친구가 받아 달라고 해서 받아 보내주고 정작 난 아직도 안보고 있었는데 시간이 좀 남는 날이라 감상~!
Once라는 영화이다. 음악이 좋다고 소문만 듣고 살았는데 정말 좋다 ㅠ.ㅜ;
처음에는 그냥 목소리가 왜저래.. 이랬는데 듣다보니 정말 심금을 울린다.
가장 좋았던 곡은 "Fall Slowly"
처음 C코드 F코드로 시작하는 멜로디는 내 머리속을 떠나지 않는다.
이곡을 듣고 영화를 다보고
봉인했던 기타를 꺼내 한번 뚜둥거려봤다.
하지만 역시
"노래를 잘 불러야하는구나...."
이런생각..
하지만... 혹시 나중에 사랑하는 사람생기면 불러주기위해 조금씩 연습해야겠다는 생각이 들었다. 코드는 무척 간단했다.

스토리나 촬영구도등 여러면에서는 정말 뭐 없다. 그러나 음악이 커버해준다고나 할까?
가사도 정말 마음에 든다...
특히 처음부분...




[Falling slowly의 가사와 코드......]


(C)             (F)
I dont know you, but I want you

(C)                (F)
all the more for that.

(C)                  (F)
Words fall through me and always fool me

(C)            (F)
and I can't react.

On this part you can pick or single strum which ever makes you happy. Im not going to
the picking for this part becuase i have my own variation that i believe sounds much better.

--0-----------3-------1------3----------------0----------3--------------1-|
--1-----------3-------1------3----------------1----------3--------------1-|
--2-----------0-------2------0----------------2----------0--------------2-|
--2-----------0-------3------0----------------2----------0--------------3-|
--0-----------0-------3------0----------------0----------0--------------3-|
--0-----------3-------0------3----------------0----------3--------------0-|
"Games that never amount to more than their ment.. will play themselfs out.


CHORUS - REFER TO CHORDS AT TOP


(C)               (F)               (Am)
Take this sinking boat and point it home

               (F)
We've still got time

(C)                  (F)               (Am)
Raise your hopefull voice you had the choice

                (F)
You've made it known


***VERSE 2 - Back To Your Own Pickin or Stumming

(C)           (F)
Falling slowly, eyes that know me

(C)              (F)
and i cant go back.

(C)               (F)
Moods that take me and erase me

(C)                 (F)
and I'm painted black.


--0-----------3-------1---------3-------------0------3--------------------1-|
--1-----------3-------1---------3-------------1------3--------------------1-|
--2-----------0-------2---------0-------------2------0--------------------2-|
--2-----------0-------3---------0-------------2------0--------------------3-|
--0-----------0-------3---------0-------------0------0--------------------3-|
--0-----------3-------0---------3-------------0------3--------------------0-|
"You have suffered enough and warred with yourself, its time that you've won

****CHORUS - CHORDS AT TOP OF PAGE****


(C)               (F)               (Am)
Take this sinking boat and point it home

                (F)
We've still got time

(C)                  (F)               (Am)
Raise your hopefull voice you had the choice

               (F)
You've made it now

****STRUM THOUGH INTRO CHORDS ONCE*****

(C)               (G)               (Am)
Take this sinking boat and point it home

                (F)
We've still got time

(C)                 (G)                (Am)
Raise your hopefull voice you had the choice

               (F)
You've made it now

(C)           (G)              (Am)
Falling slowly, sing your melody

              (F)
I'll sing it loud

(C)  (F)   (Am)   (F)  Strum x2 and keep stummin F untill outro


주인공의 운명도.. 궁금하다.. 새로운 사랑을 할 것인지, 영국에 가서 성공을 하게 될 것인지.

왠지 주인공이 마지막에 떠나는 모습이 나를 보는 것 같기도 하다........



남자주인공 Glen Hansard(글렌 핸사드)와 여주 Marketa Irglova(마케타 잉그로바)
2008아카데미 어워드에서 주제가 상을 받았음.
영화제작중 실제로 둘이 사랑에 빠졌다고 함.
Academy Award 2008 Achievement in Music Written for Motion Pictures (Original Song) - "Falling Slowly" from Once (film).

'잡다한 이야기들 > 영화와 연극 예술속으로' 카테고리의 다른 글

두얼굴의 여친  (0) 2008.07.11
The Game  (0) 2008.07.11
Heroes Season 2 (Amerian Drama)  (0) 2008.07.11
Heroes (Amerian Drama)  (0) 2008.07.11
Orange County  (0) 2008.07.10
Once  (0) 2008.07.10